  0
SECTION
  2
HEADER
  9
$ACADVER
  1
AC1014
  9
$HANDSEED
  5
FFFF
  9
$MEASUREMENT
 70
     1
  0
ENDSEC
  0
SECTION
  2
TABLES
  0
TABLE
  2
VPORT
  5
8
330
0
100
AcDbSymbolTable
 70
     4
  0
VPORT
  5
2E
330
8
100
AcDbSymbolTableRecord
100
AcDbViewportTableRecord
  2
*ACTIVE
 70
     0
 10
0.0
 20
0.0
 11
1.0
 21
1.0
 12
210.0
 22
148.5
 13
0.0
 23
0.0
 14
10.0
 24
10.0
 15
10.0
 25
10.0
 16
0.0
 26
0.0
 36
1.0
 17
0.0
 27
0.0
 37
0.0
 40
341.0
 41
1.24
 42
50.0
 43
0.0
 44
0.0
 50
0.0
 51
0.0
 71
     0
 72
   100
 73
     1
 74
     3
 75
     0
 76
     0
 77
     0
 78
     0
  0
ENDTAB
  0
TABLE
  2
LTYPE
  5
5
330
0
100
AcDbSymbolTable
 70
     1
  0
LTYPE
  5
14
330
5
100
AcDbSymbolTableRecord
100
AcDbLinetypeTableRecord
  2
BYBLOCK
 70
     0
  3

 72
    65
 73
     0
 40
0.0
  0
LTYPE
  5
15
330
5
100
AcDbSymbolTableRecord
100
AcDbLinetypeTableRecord
  2
BYLAYER
 70
     0
  3

 72
    65
 73
     0
 40
0.0
  0
LTYPE
  5
16
330
5
100
AcDbSymbolTableRecord
100
AcDbLinetypeTableRecord
  2
CONTINUOUS
 70
     0
  3
Solid line
 72
    65
 73
     0
 40
0.0
  0
ENDTAB
  0
TABLE
  2
LAYER
  5
2
100
AcDbSymbolTable
 70
2
  0
LAYER
  5
50
100
AcDbSymbolTableRecord
100
AcDbLayerTableRecord
  2
0
 70
0
  6
CONTINUOUS
  0
LAYER
  5
51
100
AcDbSymbolTableRecord
100
AcDbLayerTableRecord
  2
Layer_1
 70
0
  6
CONTINUOUS
  0
ENDTAB
  0
TABLE
  2
STYLE
  5
3
330
0
100
AcDbSymbolTable
 70
     1
  0
STYLE
  5
11
330
3
100
AcDbSymbolTableRecord
100
AcDbTextStyleTableRecord
  2
STANDARD
 70
     0
 40
0.0
 41
1.0
 50
0.0
 71
     0
 42
2.5
  3
txt
  4

  0
ENDTAB
  0
TABLE
  2
VIEW
  5
6
330
0
100
AcDbSymbolTable
 70
     0
  0
ENDTAB
  0
TABLE
  2
UCS
  5
7
330
0
100
AcDbSymbolTable
 70
     0
  0
ENDTAB
  0
TABLE
  2
APPID
  5
9
330
0
100
AcDbSymbolTable
 70
     2
  0
APPID
  5
12
330
9
100
AcDbSymbolTableRecord
100
AcDbRegAppTableRecord
  2
ACAD
 70
     0
  0
ENDTAB
  0
TABLE
  2
DIMSTYLE
  5
A
330
0
100
AcDbSymbolTable
 70
     1
  0
DIMSTYLE
105
27
330
A
100
AcDbSymbolTableRecord
100
AcDbDimStyleTableRecord
  2
ISO-25
 70
     0
  3

  4

  5

  6

  7

 40
1.0
 41
2.5
 42
0.625
 43
3.75
 44
1.25
 45
0.0
 46
0.0
 47
0.0
 48
0.0
140
2.5
141
2.5
142
0.0
143
0.03937007874016
144
1.0
145
0.0
146
1.0
147
0.625
 71
     0
 72
     0
 73
     0
 74
     0
 75
     0
 76
     0
 77
     1
 78
     8
170
     0
171
     3
172
     1
173
     0
174
     0
175
     0
176
     0
177
     0
178
     0
270
     2
271
     2
272
     2
273
     2
274
     3
340
11
275
     0
280
     0
281
     0
282
     0
283
     0
284
     8
285
     0
286
     0
287
     3
288
     0
  0
ENDTAB
  0
TABLE
  2
BLOCK_RECORD
  5
1
330
0
100
AcDbSymbolTable
 70
     1
  0
BLOCK_RECORD
  5
1F
330
1
100
AcDbSymbolTableRecord
100
AcDbBlockTableRecord
  2
*MODEL_SPACE
  0
BLOCK_RECORD
  5
1B
330
1
100
AcDbSymbolTableRecord
100
AcDbBlockTableRecord
  2
*PAPER_SPACE
  0
ENDTAB
  0
ENDSEC
  0
SECTION
  2
BLOCKS
  0
BLOCK
  5
20
330
1F
100
AcDbEntity
  8
0
100
AcDbBlockBegin
  2
*MODEL_SPACE
 70
     0
 10
0.0
 20
0.0
 30
0.0
  3
*MODEL_SPACE
  1

  0
ENDBLK
  5
21
330
1F
100
AcDbEntity
  8
0
100
AcDbBlockEnd
  0
BLOCK
  5
1C
330
1B
100
AcDbEntity
 67
     1
  8
0
100
AcDbBlockBegin
  2
*PAPER_SPACE
  1

  0
ENDBLK
  5
1D
330
1B
100
AcDbEntity
 67
     1
  8
0
100
AcDbBlockEnd
  0
ENDSEC
  0
SECTION
  2
ENTITIES
  0
SPLINE
  5
100
100
AcDbEntity
  8
Layer_1
 62
7
100
AcDbSpline
 70
8
 71
3
 72
8
 73
4
 74
0
 40
0
 40
0
 40
0
 40
0
 40
1
 40
1
 40
1
 40
1
 10
461.152501
 20
422.644124
 30
0.0
 10
452.159501
 20
420.269124
 30
0.0
 10
444.207501
 20
418.665124
 30
0.0
 10
437.291501
 20
417.828124
 30
0.0
  0
SPLINE
  5
101
100
AcDbEntity
  8
Layer_1
 62
7
100
AcDbSpline
 70
8
 71
3
 72
8
 73
4
 74
0
 40
0
 40
0
 40
0
 40
0
 40
1
 40
1
 40
1
 40
1
 10
437.291501
 20
417.828124
 30
0.0
 10
430.390501
 20
417.001124
 30
0.0
 10
422.185501
 20
416.584124
 30
0.0
 10
412.700501
 20
416.584124
 30
0.0
  0
SPLINE
  5
102
100
AcDbEntity
  8
Layer_1
 62
7
100
AcDbSpline
 70
8
 71
3
 72
8
 73
4
 74
0
 40
0
 40
0
 40
0
 40
0
 40
1
 40
1
 40
1
 40
1
 10
412.700501
 20
416.584124
 30
0.0
 10
401.020501
 20
416.584124
 30
0.0
 10
391.523501
 20
417.348124
 30
0.0
 10
384.153501
 20
418.882124
 30
0.0
  0
SPLINE
  5
103
100
AcDbEntity
  8
Layer_1
 62
7
100
AcDbSpline
 70
8
 71
3
 72
8
 73
4
 74
0
 40
0
 40
0
 40
0
 40
0
 40
1
 40
1
 40
1
 40
1
 10
384.153501
 20
418.882124
 30
0.0
 10
376.805501
 20
420.389124
 30
0.0
 10
371.087501
 20
422.687124
 30
0.0
 10
367.051501
 20
425.730124
 30
0.0
  0
SPLINE
  5
104
100
AcDbEntity
  8
Layer_1
 62
7
100
AcDbSpline
 70
8
 71
3
 72
8
 73
4
 74
0
 40
0
 40
0
 40
0
 40
0
 40
1
 40
1
 40
1
 40
1
 10
367.051501
 20
425.730124
 30
0.0
 10
362.999501
 20
428.776124
 30
0.0
 10
360.974501
 20
432.271124
 30
0.0
 10
360.974501
 20
436.220124
 30
0.0
  0
SPLINE
  5
105
100
AcDbEntity
  8
Layer_1
 62
7
100
AcDbSpline
 70
8
 71
3
 72
8
 73
4
 74
0
 40
0
 40
0
 40
0
 40
0
 40
1
 40
1
 40
1
 40
1
 10
360.974501
 20
436.220124
 30
0.0
 10
360.974501
 20
440.379124
 30
0.0
 10
363.177501
 20
444.012124
 30
0.0
 10
367.609501
 20
447.081124
 30
0.0
  0
SPLINE
  5
106
100
AcDbEntity
  8
Layer_1
 62
7
100
AcDbSpline
 70
8
 71
3
 72
8
 73
4
 74
0
 40
0
 40
0
 40
0
 40
0
 40
1
 40
1
 40
1
 40
1
 10
367.609501
 20
447.081124
 30
0.0
 10
372.028501
 20
450.145124
 30
0.0
 10
378.526501
 20
452.466124
 30
0.0
 10
387.057501
 20
454.026124
 30
0.0
  0
SPLINE
  5
107
100
AcDbEntity
  8
Layer_1
 62
7
100
AcDbSpline
 70
8
 71
3
 72
8
 73
4
 74
0
 40
0
 40
0
 40
0
 40
0
 40
1
 40
1
 40
1
 40
1
 10
387.057501
 20
454.026124
 30
0.0
 10
393.722501
 20
455.288124
 30
0.0
 10
402.679501
 20
455.911124
 30
0.0
 10
413.951501
 20
455.911124
 30
0.0
  0
SPLINE
  5
108
100
AcDbEntity
  8
Layer_1
 62
7
100
AcDbSpline
 70
8
 71
3
 72
8
 73
4
 74
0
 40
0
 40
0
 40
0
 40
0
 40
1
 40
1
 40
1
 40
1
 10
413.951501
 20
455.911124
 30
0.0
 10
424.803501
 20
455.911124
 30
0.0
 10
432.929501
 20
455.538124
 30
0.0
 10
438.318501
 20
454.765124
 30
0.0
  0
SPLINE
  5
109
100
AcDbEntity
  8
Layer_1
 62
7
100
AcDbSpline
 70
8
 71
3
 72
8
 73
4
 74
0
 40
0
 40
0
 40
0
 40
0
 40
1
 40
1
 40
1
 40
1
 10
438.318501
 20
454.765124
 30
0.0
 10
443.700501
 20
454.003124
 30
0.0
 10
448.179501
 20
452.810124
 30
0.0
 10
451.731501
 20
451.188124
 30
0.0
  0
SPLINE
  5
10a
100
AcDbEntity
  8
Layer_1
 62
7
100
AcDbSpline
 70
8
 71
3
 72
8
 73
4
 74
0
 40
0
 40
0
 40
0
 40
0
 40
1
 40
1
 40
1
 40
1
 10
451.731501
 20
451.188124
 30
0.0
 10
455.284501
 20
449.573124
 30
0.0
 10
457.953501
 20
447.524124
 30
0.0
 10
459.746501
 20
445.046124
 30
0.0
  0
LWPOLYLINE
  5
10b
100
AcDbEntity
  8
Layer_1
 62
7
100
AcDbPolyline
 90
4
 70
0
 10
414.240501
 20
430.874124
 30
0.0
 10
414.240501
 20
438.810124
 30
0.0
 10
461.152501
 20
438.810124
 30
0.0
 10
461.152501
 20
422.644124
 30
0.0
  0
SPLINE
  5
10c
100
AcDbEntity
  8
Layer_1
 62
7
100
AcDbSpline
 70
8
 71
3
 72
8
 73
4
 74
0
 40
0
 40
0
 40
0
 40
0
 40
1
 40
1
 40
1
 40
1
 10
430.462501
 20
443.042124
 30
0.0
 10
429.257501
 20
444.466124
 30
0.0
 10
427.213501
 20
445.557124
 30
0.0
 10
424.337501
 20
446.309124
 30
0.0
  0
SPLINE
  5
10d
100
AcDbEntity
  8
Layer_1
 62
7
100
AcDbSpline
 70
8
 71
3
 72
8
 73
4
 74
0
 40
0
 40
0
 40
0
 40
0
 40
1
 40
1
 40
1
 40
1
 10
424.337501
 20
446.309124
 30
0.0
 10
421.439501
 20
447.081124
 30
0.0
 10
417.780501
 20
447.452124
 30
0.0
 10
413.326501
 20
447.452124
 30
0.0
  0
SPLINE
  5
10e
100
AcDbEntity
  8
Layer_1
 62
7
100
AcDbSpline
 70
8
 71
3
 72
8
 73
4
 74
0
 40
0
 40
0
 40
0
 40
0
 40
1
 40
1
 40
1
 40
1
 10
413.326501
 20
447.452124
 30
0.0
 10
406.668501
 20
447.452124
 30
0.0
 10
401.362501
 20
446.554124
 30
0.0
 10
397.415501
 20
444.778124
 30
0.0
  0
SPLINE
  5
10f
100
AcDbEntity
  8
Layer_1
 62
7
100
AcDbSpline
 70
8
 71
3
 72
8
 73
4
 74
0
 40
0
 40
0
 40
0
 40
0
 40
1
 40
1
 40
1
 40
1
 10
397.415501
 20
444.778124
 30
0.0
 10
393.458501
 20
442.985124
 30
0.0
 10
391.486501
 20
440.172124
 30
0.0
 10
391.486501
 20
436.329124
 30
0.0
  0
SPLINE
  5
110
100
AcDbEntity
  8
Layer_1
 62
7
100
AcDbSpline
 70
8
 71
3
 72
8
 73
4
 74
0
 40
0
 40
0
 40
0
 40
0
 40
1
 40
1
 40
1
 40
1
 10
391.486501
 20
436.329124
 30
0.0
 10
391.486501
 20
432.212124
 30
0.0
 10
393.488501
 20
429.286124
 30
0.0
 10
397.486501
 20
427.518124
 30
0.0
  0
SPLINE
  5
111
100
AcDbEntity
  8
Layer_1
 62
7
100
AcDbSpline
 70
8
 71
3
 72
8
 73
4
 74
0
 40
0
 40
0
 40
0
 40
0
 40
1
 40
1
 40
1
 40
1
 10
397.486501
 20
427.518124
 30
0.0
 10
401.489501
 20
425.755124
 30
0.0
 10
407.062501
 20
424.868124
 30
0.0
 10
414.216501
 20
424.868124
 30
0.0
  0
SPLINE
  5
112
100
AcDbEntity
  8
Layer_1
 62
7
100
AcDbSpline
 70
8
 71
3
 72
8
 73
4
 74
0
 40
0
 40
0
 40
0
 40
0
 40
1
 40
1
 40
1
 40
1
 10
414.216501
 20
424.868124
 30
0.0
 10
417.603501
 20
424.868124
 30
0.0
 10
420.832501
 20
425.062124
 30
0.0
 10
423.938501
 20
425.432124
 30
0.0
  0
SPLINE
  5
113
100
AcDbEntity
  8
Layer_1
 62
7
100
AcDbSpline
 70
8
 71
3
 72
8
 73
4
 74
0
 40
0
 40
0
 40
0
 40
0
 40
1
 40
1
 40
1
 40
1
 10
423.938501
 20
425.432124
 30
0.0
 10
427.014501
 20
425.811124
 30
0.0
 10
430.535501
 20
426.438124
 30
0.0
 10
434.525501
 20
427.315124
 30
0.0
  0
LWPOLYLINE
  5
114
100
AcDbEntity
  8
Layer_1
 62
7
100
AcDbPolyline
 90
2
 70
0
 10
459.746501
 20
445.046124
 30
0.0
 10
430.462501
 20
443.042124
 30
0.0
  0
LWPOLYLINE
  5
115
100
AcDbEntity
  8
Layer_1
 62
7
100
AcDbPolyline
 90
3
 70
0
 10
434.525501
 20
427.315124
 30
0.0
 10
434.525501
 20
430.874124
 30
0.0
 10
414.240501
 20
430.874124
 30
0.0
  0
LWPOLYLINE
  5
116
100
AcDbEntity
  8
Layer_1
 62
7
100
AcDbPolyline
 90
6
 70
1
 10
159.758501
 20
345.404124
 30
0.0
 10
161.884281
 20
345.404124
 30
0.0
 10
161.884281
 20
500.411124
 30
0.0
 10
159.758501
 20
500.411124
 30
0.0
 10
159.758501
 20
345.404124
 30
0.0
 10
159.758501
 20
345.404124
 30
0.0
  0
SPLINE
  5
117
100
AcDbEntity
  8
Layer_1
 62
7
100
AcDbSpline
 70
8
 71
3
 72
8
 73
4
 74
0
 40
0
 40
0
 40
0
 40
0
 40
1
 40
1
 40
1
 40
1
 10
345.957501
 20
383.602124
 30
0.0
 10
348.191501
 20
383.602124
 30
0.0
 10
349.701501
 20
383.396124
 30
0.0
 10
350.504501
 20
382.977124
 30
0.0
  0
SPLINE
  5
118
100
AcDbEntity
  8
Layer_1
 62
7
100
AcDbSpline
 70
8
 71
3
 72
8
 73
4
 74
0
 40
0
 40
0
 40
0
 40
0
 40
1
 40
1
 40
1
 40
1
 10
350.504501
 20
382.977124
 30
0.0
 10
351.300501
 20
382.572124
 30
0.0
 10
351.698501
 20
381.824124
 30
0.0
 10
351.698501
 20
380.766124
 30
0.0
  0
SPLINE
  5
119
100
AcDbEntity
  8
Layer_1
 62
7
100
AcDbSpline
 70
8
 71
3
 72
8
 73
4
 74
0
 40
0
 40
0
 40
0
 40
0
 40
1
 40
1
 40
1
 40
1
 10
351.698501
 20
380.766124
 30
0.0
 10
351.698501
 20
379.701124
 30
0.0
 10
351.269501
 20
378.963124
 30
0.0
 10
350.397501
 20
378.525124
 30
0.0
  0
SPLINE
  5
11a
100
AcDbEntity
  8
Layer_1
 62
7
100
AcDbSpline
 70
8
 71
3
 72
8
 73
4
 74
0
 40
0
 40
0
 40
0
 40
0
 40
1
 40
1
 40
1
 40
1
 10
350.397501
 20
378.525124
 30
0.0
 10
349.534501
 20
378.096124
 30
0.0
 10
348.016501
 20
377.876124
 30
0.0
 10
345.851501
 20
377.876124
 30
0.0
  0
LWPOLYLINE
  5
11b
100
AcDbEntity
  8
Layer_1
 62
7
100
AcDbPolyline
 90
2
 70
0
 10
342.960501
 20
383.602124
 30
0.0
 10
345.957501
 20
383.602124
 30
0.0
  0
LWPOLYLINE
  5
11c
100
AcDbEntity
  8
Layer_1
 62
7
100
AcDbPolyline
 90
4
 70
0
 10
345.851501
 20
377.876124
 30
0.0
 10
342.960501
 20
377.876124
 30
0.0
 10
342.960501
 20
383.602124
 30
0.0
 10
342.960501
 20
383.602124
 30
0.0
  0
SPLINE
  5
11d
100
AcDbEntity
  8
Layer_1
 62
7
100
AcDbSpline
 70
8
 71
3
 72
8
 73
4
 74
0
 40
0
 40
0
 40
0
 40
0
 40
1
 40
1
 40
1
 40
1
 10
348.191501
 20
375.223124
 30
0.0
 10
351.731501
 20
375.223124
 30
0.0
 10
354.369501
 20
375.688124
 30
0.0
 10
356.080501
 20
376.610124
 30
0.0
  0
SPLINE
  5
11e
100
AcDbEntity
  8
Layer_1
 62
7
100
AcDbSpline
 70
8
 71
3
 72
8
 73
4
 74
0
 40
0
 40
0
 40
0
 40
0
 40
1
 40
1
 40
1
 40
1
 10
356.080501
 20
376.610124
 30
0.0
 10
357.801501
 20
377.525124
 30
0.0
 10
358.670501
 20
378.938124
 30
0.0
 10
358.670501
 20
380.833124
 30
0.0
  0
SPLINE
  5
11f
100
AcDbEntity
  8
Layer_1
 62
7
100
AcDbSpline
 70
8
 71
3
 72
8
 73
4
 74
0
 40
0
 40
0
 40
0
 40
0
 40
1
 40
1
 40
1
 40
1
 10
358.670501
 20
380.833124
 30
0.0
 10
358.670501
 20
382.755124
 30
0.0
 10
357.864501
 20
384.137124
 30
0.0
 10
356.244501
 20
384.982124
 30
0.0
  0
SPLINE
  5
120
100
AcDbEntity
  8
Layer_1
 62
7
100
AcDbSpline
 70
8
 71
3
 72
8
 73
4
 74
0
 40
0
 40
0
 40
0
 40
0
 40
1
 40
1
 40
1
 40
1
 10
356.244501
 20
384.982124
 30
0.0
 10
354.635501
 20
385.828124
 30
0.0
 10
351.974501
 20
386.253124
 30
0.0
 10
348.302501
 20
386.253124
 30
0.0
  0
LWPOLYLINE
  5
121
100
AcDbEntity
  8
Layer_1
 62
7
100
AcDbPolyline
 90
3
 70
0
 10
343.144501
 20
367.195124
 30
0.0
 10
343.144501
 20
375.223124
 30
0.0
 10
348.191501
 20
375.223124
 30
0.0
  0
LWPOLYLINE
  5
122
100
AcDbEntity
  8
Layer_1
 62
7
100
AcDbPolyline
 90
4
 70
0
 10
348.302501
 20
386.253124
 30
0.0
 10
336.260501
 20
386.253124
 30
0.0
 10
336.260501
 20
367.195124
 30
0.0
 10
343.144501
 20
367.195124
 30
0.0
  0
SPLINE
  5
123
100
AcDbEntity
  8
Layer_1
 62
7
100
AcDbSpline
 70
8
 71
3
 72
8
 73
4
 74
0
 40
0
 40
0
 40
0
 40
0
 40
1
 40
1
 40
1
 40
1
 10
400.305501
 20
382.739124
 30
0.0
 10
401.016501
 20
383.554124
 30
0.0
 10
402.323501
 20
383.952124
 30
0.0
 10
404.230501
 20
383.952124
 30
0.0
  0
SPLINE
  5
124
100
AcDbEntity
  8
Layer_1
 62
7
100
AcDbSpline
 70
8
 71
3
 72
8
 73
4
 74
0
 40
0
 40
0
 40
0
 40
0
 40
1
 40
1
 40
1
 40
1
 10
404.230501
 20
383.952124
 30
0.0
 10
406.137501
 20
383.952124
 30
0.0
 10
407.446501
 20
383.554124
 30
0.0
 10
408.157501
 20
382.739124
 30
0.0
  0
SPLINE
  5
125
100
AcDbEntity
  8
Layer_1
 62
7
100
AcDbSpline
 70
8
 71
3
 72
8
 73
4
 74
0
 40
0
 40
0
 40
0
 40
0
 40
1
 40
1
 40
1
 40
1
 10
408.157501
 20
382.739124
 30
0.0
 10
408.869501
 20
381.930124
 30
0.0
 10
409.214501
 20
379.936124
 30
0.0
 10
409.214501
 20
376.755124
 30
0.0
  0
SPLINE
  5
126
100
AcDbEntity
  8
Layer_1
 62
7
100
AcDbSpline
 70
8
 71
3
 72
8
 73
4
 74
0
 40
0
 40
0
 40
0
 40
0
 40
1
 40
1
 40
1
 40
1
 10
409.214501
 20
376.755124
 30
0.0
 10
409.214501
 20
373.570124
 30
0.0
 10
408.869501
 20
371.568124
 30
0.0
 10
408.164501
 20
370.773124
 30
0.0
  0
SPLINE
  5
127
100
AcDbEntity
  8
Layer_1
 62
7
100
AcDbSpline
 70
8
 71
3
 72
8
 73
4
 74
0
 40
0
 40
0
 40
0
 40
0
 40
1
 40
1
 40
1
 40
1
 10
408.164501
 20
370.773124
 30
0.0
 10
407.461501
 20
369.986124
 30
0.0
 10
406.171501
 20
369.579124
 30
0.0
 10
404.276501
 20
369.579124
 30
0.0
  0
SPLINE
  5
128
100
AcDbEntity
  8
Layer_1
 62
7
100
AcDbSpline
 70
8
 71
3
 72
8
 73
4
 74
0
 40
0
 40
0
 40
0
 40
0
 40
1
 40
1
 40
1
 40
1
 10
404.276501
 20
369.579124
 30
0.0
 10
402.346501
 20
369.579124
 30
0.0
 10
401.028501
 20
369.986124
 30
0.0
 10
400.318501
 20
370.793124
 30
0.0
  0
SPLINE
  5
129
100
AcDbEntity
  8
Layer_1
 62
7
100
AcDbSpline
 70
8
 71
3
 72
8
 73
4
 74
0
 40
0
 40
0
 40
0
 40
0
 40
1
 40
1
 40
1
 40
1
 10
400.318501
 20
370.793124
 30
0.0
 10
399.603501
 20
371.620124
 30
0.0
 10
399.251501
 20
373.615124
 30
0.0
 10
399.251501
 20
376.755124
 30
0.0
  0
SPLINE
  5
12a
100
AcDbEntity
  8
Layer_1
 62
7
100
AcDbSpline
 70
8
 71
3
 72
8
 73
4
 74
0
 40
0
 40
0
 40
0
 40
0
 40
1
 40
1
 40
1
 40
1
 10
399.251501
 20
376.755124
 30
0.0
 10
399.251501
 20
379.936124
 30
0.0
 10
399.603501
 20
381.930124
 30
0.0
 10
400.305501
 20
382.739124
 30
0.0
  0
SPLINE
  5
12b
100
AcDbEntity
  8
Layer_1
 62
7
100
AcDbSpline
 70
8
 71
3
 72
8
 73
4
 74
0
 40
0
 40
0
 40
0
 40
0
 40
1
 40
1
 40
1
 40
1
 10
392.750501
 20
371.881124
 30
0.0
 10
393.113501
 20
370.662124
 30
0.0
 10
393.709501
 20
369.742124
 30
0.0
 10
394.497501
 20
369.137124
 30
0.0
  0
SPLINE
  5
12c
100
AcDbEntity
  8
Layer_1
 62
7
100
AcDbSpline
 70
8
 71
3
 72
8
 73
4
 74
0
 40
0
 40
0
 40
0
 40
0
 40
1
 40
1
 40
1
 40
1
 10
394.497501
 20
369.137124
 30
0.0
 10
395.574501
 20
368.275124
 30
0.0
 10
396.848501
 20
367.665124
 30
0.0
 10
398.355501
 20
367.306124
 30
0.0
  0
SPLINE
  5
12d
100
AcDbEntity
  8
Layer_1
 62
7
100
AcDbSpline
 70
8
 71
3
 72
8
 73
4
 74
0
 40
0
 40
0
 40
0
 40
0
 40
1
 40
1
 40
1
 40
1
 10
398.355501
 20
367.306124
 30
0.0
 10
399.854501
 20
366.945124
 30
0.0
 10
401.833501
 20
366.754124
 30
0.0
 10
404.276501
 20
366.754124
 30
0.0
  0
SPLINE
  5
12e
100
AcDbEntity
  8
Layer_1
 62
7
100
AcDbSpline
 70
8
 71
3
 72
8
 73
4
 74
0
 40
0
 40
0
 40
0
 40
0
 40
1
 40
1
 40
1
 40
1
 10
404.276501
 20
366.754124
 30
0.0
 10
406.714501
 20
366.754124
 30
0.0
 10
408.692501
 20
366.945124
 30
0.0
 10
410.199501
 20
367.306124
 30
0.0
  0
SPLINE
  5
12f
100
AcDbEntity
  8
Layer_1
 62
7
100
AcDbSpline
 70
8
 71
3
 72
8
 73
4
 74
0
 40
0
 40
0
 40
0
 40
0
 40
1
 40
1
 40
1
 40
1
 10
410.199501
 20
367.306124
 30
0.0
 10
411.696501
 20
367.665124
 30
0.0
 10
412.990501
 20
368.275124
 30
0.0
 10
414.077501
 20
369.137124
 30
0.0
  0
SPLINE
  5
130
100
AcDbEntity
  8
Layer_1
 62
7
100
AcDbSpline
 70
8
 71
3
 72
8
 73
4
 74
0
 40
0
 40
0
 40
0
 40
0
 40
1
 40
1
 40
1
 40
1
 10
414.077501
 20
369.137124
 30
0.0
 10
414.857501
 20
369.761124
 30
0.0
 10
415.431501
 20
370.690124
 30
0.0
 10
415.800501
 20
371.905124
 30
0.0
  0
SPLINE
  5
131
100
AcDbEntity
  8
Layer_1
 62
7
100
AcDbSpline
 70
8
 71
3
 72
8
 73
4
 74
0
 40
0
 40
0
 40
0
 40
0
 40
1
 40
1
 40
1
 40
1
 10
415.800501
 20
371.905124
 30
0.0
 10
416.164501
 20
373.116124
 30
0.0
 10
416.348501
 20
374.725124
 30
0.0
 10
416.348501
 20
376.755124
 30
0.0
  0
SPLINE
  5
132
100
AcDbEntity
  8
Layer_1
 62
7
100
AcDbSpline
 70
8
 71
3
 72
8
 73
4
 74
0
 40
0
 40
0
 40
0
 40
0
 40
1
 40
1
 40
1
 40
1
 10
416.348501
 20
376.755124
 30
0.0
 10
416.348501
 20
378.778124
 30
0.0
 10
416.164501
 20
380.386124
 30
0.0
 10
415.812501
 20
381.591124
 30
0.0
  0
SPLINE
  5
133
100
AcDbEntity
  8
Layer_1
 62
7
100
AcDbSpline
 70
8
 71
3
 72
8
 73
4
 74
0
 40
0
 40
0
 40
0
 40
0
 40
1
 40
1
 40
1
 40
1
 10
415.812501
 20
381.591124
 30
0.0
 10
415.445501
 20
382.800124
 30
0.0
 10
414.874501
 20
383.716124
 30
0.0
 10
414.077501
 20
384.346124
 30
0.0
  0
SPLINE
  5
134
100
AcDbEntity
  8
Layer_1
 62
7
100
AcDbSpline
 70
8
 71
3
 72
8
 73
4
 74
0
 40
0
 40
0
 40
0
 40
0
 40
1
 40
1
 40
1
 40
1
 10
414.077501
 20
384.346124
 30
0.0
 10
412.990501
 20
385.222124
 30
0.0
 10
411.696501
 20
385.847124
 30
0.0
 10
410.199501
 20
386.218124
 30
0.0
  0
SPLINE
  5
135
100
AcDbEntity
  8
Layer_1
 62
7
100
AcDbSpline
 70
8
 71
3
 72
8
 73
4
 74
0
 40
0
 40
0
 40
0
 40
0
 40
1
 40
1
 40
1
 40
1
 10
410.199501
 20
386.218124
 30
0.0
 10
408.692501
 20
386.596124
 30
0.0
 10
406.714501
 20
386.775124
 30
0.0
 10
404.276501
 20
386.775124
 30
0.0
  0
SPLINE
  5
136
100
AcDbEntity
  8
Layer_1
 62
7
100
AcDbSpline
 70
8
 71
3
 72
8
 73
4
 74
0
 40
0
 40
0
 40
0
 40
0
 40
1
 40
1
 40
1
 40
1
 10
404.276501
 20
386.775124
 30
0.0
 10
401.833501
 20
386.775124
 30
0.0
 10
399.854501
 20
386.596124
 30
0.0
 10
398.355501
 20
386.218124
 30
0.0
  0
SPLINE
  5
137
100
AcDbEntity
  8
Layer_1
 62
7
100
AcDbSpline
 70
8
 71
3
 72
8
 73
4
 74
0
 40
0
 40
0
 40
0
 40
0
 40
1
 40
1
 40
1
 40
1
 10
398.355501
 20
386.218124
 30
0.0
 10
396.848501
 20
385.847124
 30
0.0
 10
395.574501
 20
385.222124
 30
0.0
 10
394.497501
 20
384.346124
 30
0.0
  0
SPLINE
  5
138
100
AcDbEntity
  8
Layer_1
 62
7
100
AcDbSpline
 70
8
 71
3
 72
8
 73
4
 74
0
 40
0
 40
0
 40
0
 40
0
 40
1
 40
1
 40
1
 40
1
 10
394.497501
 20
384.346124
 30
0.0
 10
393.709501
 20
383.740124
 30
0.0
 10
393.113501
 20
382.816124
 30
0.0
 10
392.750501
 20
381.605124
 30
0.0
  0
SPLINE
  5
139
100
AcDbEntity
  8
Layer_1
 62
7
100
AcDbSpline
 70
8
 71
3
 72
8
 73
4
 74
0
 40
0
 40
0
 40
0
 40
0
 40
1
 40
1
 40
1
 40
1
 10
392.750501
 20
381.605124
 30
0.0
 10
392.380501
 20
380.393124
 30
0.0
 10
392.188501
 20
378.778124
 30
0.0
 10
392.188501
 20
376.755124
 30
0.0
  0
SPLINE
  5
13a
100
AcDbEntity
  8
Layer_1
 62
7
100
AcDbSpline
 70
8
 71
3
 72
8
 73
4
 74
0
 40
0
 40
0
 40
0
 40
0
 40
1
 40
1
 40
1
 40
1
 10
392.188501
 20
376.755124
 30
0.0
 10
392.188501
 20
374.715124
 30
0.0
 10
392.380501
 20
373.085124
 30
0.0
 10
392.750501
 20
371.881124
 30
0.0
  0
LWPOLYLINE
  5
13b
100
AcDbEntity
  8
Layer_1
 62
7
100
AcDbPolyline
 90
13
 70
0
 10
363.304501
 20
367.195124
 30
0.0
 10
363.304501
 20
386.253124
 30
0.0
 10
370.186501
 20
386.253124
 30
0.0
 10
370.186501
 20
378.847124
 30
0.0
 10
379.795501
 20
378.847124
 30
0.0
 10
379.795501
 20
386.253124
 30
0.0
 10
386.685501
 20
386.253124
 30
0.0
 10
386.685501
 20
367.195124
 30
0.0
 10
379.795501
 20
367.195124
 30
0.0
 10
379.795501
 20
375.849124
 30
0.0
 10
370.186501
 20
375.849124
 30
0.0
 10
370.186501
 20
367.195124
 30
0.0
 10
363.304501
 20
367.195124
 30
0.0
  0
SPLINE
  5
13c
100
AcDbEntity
  8
Layer_1
 62
7
100
AcDbSpline
 70
8
 71
3
 72
8
 73
4
 74
0
 40
0
 40
0
 40
0
 40
0
 40
1
 40
1
 40
1
 40
1
 10
453.336501
 20
382.739124
 30
0.0
 10
454.044501
 20
383.554124
 30
0.0
 10
455.351501
 20
383.952124
 30
0.0
 10
457.259501
 20
383.952124
 30
0.0
  0
SPLINE
  5
13d
100
AcDbEntity
  8
Layer_1
 62
7
100
AcDbSpline
 70
8
 71
3
 72
8
 73
4
 74
0
 40
0
 40
0
 40
0
 40
0
 40
1
 40
1
 40
1
 40
1
 10
457.259501
 20
383.952124
 30
0.0
 10
459.168501
 20
383.952124
 30
0.0
 10
460.478501
 20
383.554124
 30
0.0
 10
461.183501
 20
382.739124
 30
0.0
  0
SPLINE
  5
13e
100
AcDbEntity
  8
Layer_1
 62
7
100
AcDbSpline
 70
8
 71
3
 72
8
 73
4
 74
0
 40
0
 40
0
 40
0
 40
0
 40
1
 40
1
 40
1
 40
1
 10
461.183501
 20
382.739124
 30
0.0
 10
461.894501
 20
381.930124
 30
0.0
 10
462.239501
 20
379.936124
 30
0.0
 10
462.239501
 20
376.755124
 30
0.0
  0
SPLINE
  5
13f
100
AcDbEntity
  8
Layer_1
 62
7
100
AcDbSpline
 70
8
 71
3
 72
8
 73
4
 74
0
 40
0
 40
0
 40
0
 40
0
 40
1
 40
1
 40
1
 40
1
 10
462.239501
 20
376.755124
 30
0.0
 10
462.239501
 20
373.570124
 30
0.0
 10
461.894501
 20
371.568124
 30
0.0
 10
461.195501
 20
370.773124
 30
0.0
  0
SPLINE
  5
140
100
AcDbEntity
  8
Layer_1
 62
7
100
AcDbSpline
 70
8
 71
3
 72
8
 73
4
 74
0
 40
0
 40
0
 40
0
 40
0
 40
1
 40
1
 40
1
 40
1
 10
461.195501
 20
370.773124
 30
0.0
 10
460.503501
 20
369.986124
 30
0.0
 10
459.196501
 20
369.579124
 30
0.0
 10
457.308501
 20
369.579124
 30
0.0
  0
SPLINE
  5
141
100
AcDbEntity
  8
Layer_1
 62
7
100
AcDbSpline
 70
8
 71
3
 72
8
 73
4
 74
0
 40
0
 40
0
 40
0
 40
0
 40
1
 40
1
 40
1
 40
1
 10
457.308501
 20
369.579124
 30
0.0
 10
455.384501
 20
369.579124
 30
0.0
 10
454.069501
 20
369.986124
 30
0.0
 10
453.352501
 20
370.793124
 30
0.0
  0
SPLINE
  5
142
100
AcDbEntity
  8
Layer_1
 62
7
100
AcDbSpline
 70
8
 71
3
 72
8
 73
4
 74
0
 40
0
 40
0
 40
0
 40
0
 40
1
 40
1
 40
1
 40
1
 10
453.352501
 20
370.793124
 30
0.0
 10
452.644501
 20
371.620124
 30
0.0
 10
452.278501
 20
373.615124
 30
0.0
 10
452.278501
 20
376.755124
 30
0.0
  0
SPLINE
  5
143
100
AcDbEntity
  8
Layer_1
 62
7
100
AcDbSpline
 70
8
 71
3
 72
8
 73
4
 74
0
 40
0
 40
0
 40
0
 40
0
 40
1
 40
1
 40
1
 40
1
 10
452.278501
 20
376.755124
 30
0.0
 10
452.278501
 20
379.936124
 30
0.0
 10
452.635501
 20
381.930124
 30
0.0
 10
453.336501
 20
382.739124
 30
0.0
  0
SPLINE
  5
144
100
AcDbEntity
  8
Layer_1
 62
7
100
AcDbSpline
 70
8
 71
3
 72
8
 73
4
 74
0
 40
0
 40
0
 40
0
 40
0
 40
1
 40
1
 40
1
 40
1
 10
445.785501
 20
371.881124
 30
0.0
 10
446.154501
 20
370.662124
 30
0.0
 10
446.724501
 20
369.742124
 30
0.0
 10
447.523501
 20
369.137124
 30
0.0
  0
SPLINE
  5
145
100
AcDbEntity
  8
Layer_1
 62
7
100
AcDbSpline
 70
8
 71
3
 72
8
 73
4
 74
0
 40
0
 40
0
 40
0
 40
0
 40
1
 40
1
 40
1
 40
1
 10
447.523501
 20
369.137124
 30
0.0
 10
448.584501
 20
368.275124
 30
0.0
 10
449.900501
 20
367.665124
 30
0.0
 10
451.384501
 20
367.306124
 30
0.0
  0
SPLINE
  5
146
100
AcDbEntity
  8
Layer_1
 62
7
100
AcDbSpline
 70
8
 71
3
 72
8
 73
4
 74
0
 40
0
 40
0
 40
0
 40
0
 40
1
 40
1
 40
1
 40
1
 10
451.384501
 20
367.306124
 30
0.0
 10
452.885501
 20
366.945124
 30
0.0
 10
454.847501
 20
366.754124
 30
0.0
 10
457.308501
 20
366.754124
 30
0.0
  0
SPLINE
  5
147
100
AcDbEntity
  8
Layer_1
 62
7
100
AcDbSpline
 70
8
 71
3
 72
8
 73
4
 74
0
 40
0
 40
0
 40
0
 40
0
 40
1
 40
1
 40
1
 40
1
 10
457.308501
 20
366.754124
 30
0.0
 10
459.750501
 20
366.754124
 30
0.0
 10
461.737501
 20
366.945124
 30
0.0
 10
463.223501
 20
367.306124
 30
0.0
  0
SPLINE
  5
148
100
AcDbEntity
  8
Layer_1
 62
7
100
AcDbSpline
 70
8
 71
3
 72
8
 73
4
 74
0
 40
0
 40
0
 40
0
 40
0
 40
1
 40
1
 40
1
 40
1
 10
463.223501
 20
367.306124
 30
0.0
 10
464.716501
 20
367.665124
 30
0.0
 10
466.030501
 20
368.275124
 30
0.0
 10
467.111501
 20
369.137124
 30
0.0
  0
SPLINE
  5
149
100
AcDbEntity
  8
Layer_1
 62
7
100
AcDbSpline
 70
8
 71
3
 72
8
 73
4
 74
0
 40
0
 40
0
 40
0
 40
0
 40
1
 40
1
 40
1
 40
1
 10
467.111501
 20
369.137124
 30
0.0
 10
467.892501
 20
369.761124
 30
0.0
 10
468.455501
 20
370.690124
 30
0.0
 10
468.824501
 20
371.905124
 30
0.0
  0
SPLINE
  5
14a
100
AcDbEntity
  8
Layer_1
 62
7
100
AcDbSpline
 70
8
 71
3
 72
8
 73
4
 74
0
 40
0
 40
0
 40
0
 40
0
 40
1
 40
1
 40
1
 40
1
 10
468.824501
 20
371.905124
 30
0.0
 10
469.193501
 20
373.116124
 30
0.0
 10
469.376501
 20
374.725124
 30
0.0
 10
469.376501
 20
376.755124
 30
0.0
  0
SPLINE
  5
14b
100
AcDbEntity
  8
Layer_1
 62
7
100
AcDbSpline
 70
8
 71
3
 72
8
 73
4
 74
0
 40
0
 40
0
 40
0
 40
0
 40
1
 40
1
 40
1
 40
1
 10
469.376501
 20
376.755124
 30
0.0
 10
469.376501
 20
378.778124
 30
0.0
 10
469.205501
 20
380.386124
 30
0.0
 10
468.837501
 20
381.591124
 30
0.0
  0
SPLINE
  5
14c
100
AcDbEntity
  8
Layer_1
 62
7
100
AcDbSpline
 70
8
 71
3
 72
8
 73
4
 74
0
 40
0
 40
0
 40
0
 40
0
 40
1
 40
1
 40
1
 40
1
 10
468.837501
 20
381.591124
 30
0.0
 10
468.477501
 20
382.800124
 30
0.0
 10
467.898501
 20
383.716124
 30
0.0
 10
467.111501
 20
384.346124
 30
0.0
  0
SPLINE
  5
14d
100
AcDbEntity
  8
Layer_1
 62
7
100
AcDbSpline
 70
8
 71
3
 72
8
 73
4
 74
0
 40
0
 40
0
 40
0
 40
0
 40
1
 40
1
 40
1
 40
1
 10
467.111501
 20
384.346124
 30
0.0
 10
466.030501
 20
385.222124
 30
0.0
 10
464.716501
 20
385.847124
 30
0.0
 10
463.223501
 20
386.218124
 30
0.0
  0
SPLINE
  5
14e
100
AcDbEntity
  8
Layer_1
 62
7
100
AcDbSpline
 70
8
 71
3
 72
8
 73
4
 74
0
 40
0
 40
0
 40
0
 40
0
 40
1
 40
1
 40
1
 40
1
 10
463.223501
 20
386.218124
 30
0.0
 10
461.737501
 20
386.596124
 30
0.0
 10
459.750501
 20
386.775124
 30
0.0
 10
457.308501
 20
386.775124
 30
0.0
  0
SPLINE
  5
14f
100
AcDbEntity
  8
Layer_1
 62
7
100
AcDbSpline
 70
8
 71
3
 72
8
 73
4
 74
0
 40
0
 40
0
 40
0
 40
0
 40
1
 40
1
 40
1
 40
1
 10
457.308501
 20
386.775124
 30
0.0
 10
454.847501
 20
386.775124
 30
0.0
 10
452.885501
 20
386.596124
 30
0.0
 10
451.384501
 20
386.218124
 30
0.0
  0
SPLINE
  5
150
100
AcDbEntity
  8
Layer_1
 62
7
100
AcDbSpline
 70
8
 71
3
 72
8
 73
4
 74
0
 40
0
 40
0
 40
0
 40
0
 40
1
 40
1
 40
1
 40
1
 10
451.384501
 20
386.218124
 30
0.0
 10
449.900501
 20
385.847124
 30
0.0
 10
448.584501
 20
385.222124
 30
0.0
 10
447.523501
 20
384.346124
 30
0.0
  0
SPLINE
  5
151
100
AcDbEntity
  8
Layer_1
 62
7
100
AcDbSpline
 70
8
 71
3
 72
8
 73
4
 74
0
 40
0
 40
0
 40
0
 40
0
 40
1
 40
1
 40
1
 40
1
 10
447.523501
 20
384.346124
 30
0.0
 10
446.724501
 20
383.740124
 30
0.0
 10
446.154501
 20
382.816124
 30
0.0
 10
445.785501
 20
381.605124
 30
0.0
  0
SPLINE
  5
152
100
AcDbEntity
  8
Layer_1
 62
7
100
AcDbSpline
 70
8
 71
3
 72
8
 73
4
 74
0
 40
0
 40
0
 40
0
 40
0
 40
1
 40
1
 40
1
 40
1
 10
445.785501
 20
381.605124
 30
0.0
 10
445.414501
 20
380.393124
 30
0.0
 10
445.232501
 20
378.778124
 30
0.0
 10
445.232501
 20
376.755124
 30
0.0
  0
SPLINE
  5
153
100
AcDbEntity
  8
Layer_1
 62
7
100
AcDbSpline
 70
8
 71
3
 72
8
 73
4
 74
0
 40
0
 40
0
 40
0
 40
0
 40
1
 40
1
 40
1
 40
1
 10
445.232501
 20
376.755124
 30
0.0
 10
445.232501
 20
374.715124
 30
0.0
 10
445.414501
 20
373.085124
 30
0.0
 10
445.785501
 20
371.881124
 30
0.0
  0
LWPOLYLINE
  5
154
100
AcDbEntity
  8
Layer_1
 62
7
100
AcDbPolyline
 90
9
 70
0
 10
427.392501
 20
367.195124
 30
0.0
 10
427.392501
 20
383.072124
 30
0.0
 10
419.357501
 20
383.072124
 30
0.0
 10
419.357501
 20
386.253124
 30
0.0
 10
442.389501
 20
386.253124
 30
0.0
 10
442.389501
 20
383.072124
 30
0.0
 10
434.362501
 20
383.072124
 30
0.0
 10
434.362501
 20
367.195124
 30
0.0
 10
427.392501
 20
367.195124
 30
0.0
  0
LWPOLYLINE
  5
155
100
AcDbEntity
  8
Layer_1
 62
7
100
AcDbPolyline
 90
11
 70
0
 10
475.137501
 20
367.195124
 30
0.0
 10
475.137501
 20
386.253124
 30
0.0
 10
482.271501
 20
386.253124
 30
0.0
 10
492.012501
 20
372.934124
 30
0.0
 10
491.813501
 20
386.253124
 30
0.0
 10
498.341501
 20
386.253124
 30
0.0
 10
498.341501
 20
367.195124
 30
0.0
 10
491.275501
 20
367.195124
 30
0.0
 10
481.480501
 20
380.536124
 30
0.0
 10
481.675501
 20
367.195124
 30
0.0
 10
475.137501
 20
367.195124
 30
0.0
  0
LWPOLYLINE
  5
156
100
AcDbEntity
  8
Layer_1
 62
7
100
AcDbPolyline
 90
6
 70
1
 10
504.705501
 20
367.195124
 30
0.0
 10
511.685581
 20
367.195124
 30
0.0
 10
511.685581
 20
386.253324
 30
0.0
 10
504.705501
 20
386.253324
 30
0.0
 10
504.705501
 20
367.195124
 30
0.0
 10
504.705501
 20
367.195124
 30
0.0
  0
SPLINE
  5
157
100
AcDbEntity
  8
Layer_1
 62
7
100
AcDbSpline
 70
8
 71
3
 72
8
 73
4
 74
0
 40
0
 40
0
 40
0
 40
0
 40
1
 40
1
 40
1
 40
1
 10
539.538501
 20
373.988124
 30
0.0
 10
539.538501
 20
373.907124
 30
0.0
 10
539.550501
 20
373.780124
 30
0.0
 10
539.562501
 20
373.626124
 30
0.0
  0
SPLINE
  5
158
100
AcDbEntity
  8
Layer_1
 62
7
100
AcDbSpline
 70
8
 71
3
 72
8
 73
4
 74
0
 40
0
 40
0
 40
0
 40
0
 40
1
 40
1
 40
1
 40
1
 10
539.562501
 20
373.626124
 30
0.0
 10
539.575501
 20
373.463124
 30
0.0
 10
539.593501
 20
373.328124
 30
0.0
 10
539.593501
 20
373.246124
 30
0.0
  0
SPLINE
  5
159
100
AcDbEntity
  8
Layer_1
 62
7
100
AcDbSpline
 70
8
 71
3
 72
8
 73
4
 74
0
 40
0
 40
0
 40
0
 40
0
 40
1
 40
1
 40
1
 40
1
 10
539.593501
 20
373.246124
 30
0.0
 10
539.593501
 20
371.027124
 30
0.0
 10
538.667501
 20
369.396124
 30
0.0
 10
536.860501
 20
368.342124
 30
0.0
  0
SPLINE
  5
15a
100
AcDbEntity
  8
Layer_1
 62
7
100
AcDbSpline
 70
8
 71
3
 72
8
 73
4
 74
0
 40
0
 40
0
 40
0
 40
0
 40
1
 40
1
 40
1
 40
1
 10
536.860501
 20
368.342124
 30
0.0
 10
535.044501
 20
367.287124
 30
0.0
 10
532.268501
 20
366.754124
 30
0.0
 10
528.527501
 20
366.754124
 30
0.0
  0
SPLINE
  5
15b
100
AcDbEntity
  8
Layer_1
 62
7
100
AcDbSpline
 70
8
 71
3
 72
8
 73
4
 74
0
 40
0
 40
0
 40
0
 40
0
 40
1
 40
1
 40
1
 40
1
 10
528.527501
 20
366.754124
 30
0.0
 10
526.751501
 20
366.754124
 30
0.0
 10
525.231501
 20
366.868124
 30
0.0
 10
523.957501
 20
367.102124
 30
0.0
  0
SPLINE
  5
15c
100
AcDbEntity
  8
Layer_1
 62
7
100
AcDbSpline
 70
8
 71
3
 72
8
 73
4
 74
0
 40
0
 40
0
 40
0
 40
0
 40
1
 40
1
 40
1
 40
1
 10
523.957501
 20
367.102124
 30
0.0
 10
522.677501
 20
367.323124
 30
0.0
 10
521.576501
 20
367.675124
 30
0.0
 10
520.664501
 20
368.169124
 30
0.0
  0
SPLINE
  5
15d
100
AcDbEntity
  8
Layer_1
 62
7
100
AcDbSpline
 70
8
 71
3
 72
8
 73
4
 74
0
 40
0
 40
0
 40
0
 40
0
 40
1
 40
1
 40
1
 40
1
 10
520.664501
 20
368.169124
 30
0.0
 10
519.404501
 20
368.828124
 30
0.0
 10
518.512501
 20
369.736124
 30
0.0
 10
518.011501
 20
370.906124
 30
0.0
  0
SPLINE
  5
15e
100
AcDbEntity
  8
Layer_1
 62
7
100
AcDbSpline
 70
8
 71
3
 72
8
 73
4
 74
0
 40
0
 40
0
 40
0
 40
0
 40
1
 40
1
 40
1
 40
1
 10
518.011501
 20
370.906124
 30
0.0
 10
517.480501
 20
372.066124
 30
0.0
 10
517.226501
 20
374.100124
 30
0.0
 10
517.226501
 20
376.973124
 30
0.0
  0
SPLINE
  5
15f
100
AcDbEntity
  8
Layer_1
 62
7
100
AcDbSpline
 70
8
 71
3
 72
8
 73
4
 74
0
 40
0
 40
0
 40
0
 40
0
 40
1
 40
1
 40
1
 40
1
 10
517.226501
 20
376.973124
 30
0.0
 10
517.226501
 20
378.950124
 30
0.0
 10
517.388501
 20
380.522124
 30
0.0
 10
517.688501
 20
381.674124
 30
0.0
  0
SPLINE
  5
160
100
AcDbEntity
  8
Layer_1
 62
7
100
AcDbSpline
 70
8
 71
3
 72
8
 73
4
 74
0
 40
0
 40
0
 40
0
 40
0
 40
1
 40
1
 40
1
 40
1
 10
517.688501
 20
381.674124
 30
0.0
 10
518.001501
 20
382.838124
 30
0.0
 10
518.461501
 20
383.703124
 30
0.0
 10
519.110501
 20
384.276124
 30
0.0
  0
SPLINE
  5
161
100
AcDbEntity
  8
Layer_1
 62
7
100
AcDbSpline
 70
8
 71
3
 72
8
 73
4
 74
0
 40
0
 40
0
 40
0
 40
0
 40
1
 40
1
 40
1
 40
1
 10
519.110501
 20
384.276124
 30
0.0
 10
520.118501
 20
385.153124
 30
0.0
 10
521.358501
 20
385.801124
 30
0.0
 10
522.836501
 20
386.192124
 30
0.0
  0
SPLINE
  5
162
100
AcDbEntity
  8
Layer_1
 62
7
100
AcDbSpline
 70
8
 71
3
 72
8
 73
4
 74
0
 40
0
 40
0
 40
0
 40
0
 40
1
 40
1
 40
1
 40
1
 10
522.836501
 20
386.192124
 30
0.0
 10
524.326501
 20
386.580124
 30
0.0
 10
526.220501
 20
386.775124
 30
0.0
 10
528.523501
 20
386.775124
 30
0.0
  0
SPLINE
  5
163
100
AcDbEntity
  8
Layer_1
 62
7
100
AcDbSpline
 70
8
 71
3
 72
8
 73
4
 74
0
 40
0
 40
0
 40
0
 40
0
 40
1
 40
1
 40
1
 40
1
 10
528.523501
 20
386.775124
 30
0.0
 10
532.306501
 20
386.775124
 30
0.0
 10
535.040501
 20
386.273124
 30
0.0
 10
536.759501
 20
385.260124
 30
0.0
  0
SPLINE
  5
164
100
AcDbEntity
  8
Layer_1
 62
7
100
AcDbSpline
 70
8
 71
3
 72
8
 73
4
 74
0
 40
0
 40
0
 40
0
 40
0
 40
1
 40
1
 40
1
 40
1
 10
536.759501
 20
385.260124
 30
0.0
 10
538.485501
 20
384.263124
 30
0.0
 10
539.349501
 20
382.643124
 30
0.0
 10
539.374501
 20
380.420124
 30
0.0
  0
LWPOLYLINE
  5
165
100
AcDbEntity
  8
Layer_1
 62
7
100
AcDbPolyline
 90
2
 70
0
 10
532.738501
 20
373.988124
 30
0.0
 10
539.538501
 20
373.988124
 30
0.0
  0
SPLINE
  5
166
100
AcDbEntity
  8
Layer_1
 62
7
100
AcDbSpline
 70
8
 71
3
 72
8
 73
4
 74
0
 40
0
 40
0
 40
0
 40
0
 40
1
 40
1
 40
1
 40
1
 10
532.668501
 20
380.884124
 30
0.0
 10
532.668501
 20
381.914124
 30
0.0
 10
532.326501
 20
382.679124
 30
0.0
 10
531.680501
 20
383.189124
 30
0.0
  0
SPLINE
  5
167
100
AcDbEntity
  8
Layer_1
 62
7
100
AcDbSpline
 70
8
 71
3
 72
8
 73
4
 74
0
 40
0
 40
0
 40
0
 40
0
 40
1
 40
1
 40
1
 40
1
 10
531.680501
 20
383.189124
 30
0.0
 10
531.034501
 20
383.703124
 30
0.0
 10
530.032501
 20
383.952124
 30
0.0
 10
528.694501
 20
383.952124
 30
0.0
  0
SPLINE
  5
168
100
AcDbEntity
  8
Layer_1
 62
7
100
AcDbSpline
 70
8
 71
3
 72
8
 73
4
 74
0
 40
0
 40
0
 40
0
 40
0
 40
1
 40
1
 40
1
 40
1
 10
528.694501
 20
383.952124
 30
0.0
 10
527.018501
 20
383.952124
 30
0.0
 10
525.884501
 20
383.602124
 30
0.0
 10
525.280501
 20
382.896124
 30
0.0
  0
SPLINE
  5
169
100
AcDbEntity
  8
Layer_1
 62
7
100
AcDbSpline
 70
8
 71
3
 72
8
 73
4
 74
0
 40
0
 40
0
 40
0
 40
0
 40
1
 40
1
 40
1
 40
1
 10
525.280501
 20
382.896124
 30
0.0
 10
524.680501
 20
382.195124
 30
0.0
 10
524.372501
 20
380.232124
 30
0.0
 10
524.372501
 20
377.033124
 30
0.0
  0
SPLINE
  5
16a
100
AcDbEntity
  8
Layer_1
 62
7
100
AcDbSpline
 70
8
 71
3
 72
8
 73
4
 74
0
 40
0
 40
0
 40
0
 40
0
 40
1
 40
1
 40
1
 40
1
 10
524.372501
 20
377.033124
 30
0.0
 10
524.372501
 20
373.570124
 30
0.0
 10
524.667501
 20
371.479124
 30
0.0
 10
525.247501
 20
370.712124
 30
0.0
  0
SPLINE
  5
16b
100
AcDbEntity
  8
Layer_1
 62
7
100
AcDbSpline
 70
8
 71
3
 72
8
 73
4
 74
0
 40
0
 40
0
 40
0
 40
0
 40
1
 40
1
 40
1
 40
1
 10
525.247501
 20
370.712124
 30
0.0
 10
525.835501
 20
369.959124
 30
0.0
 10
526.955501
 20
369.579124
 30
0.0
 10
528.617501
 20
369.579124
 30
0.0
  0
SPLINE
  5
16c
100
AcDbEntity
  8
Layer_1
 62
7
100
AcDbSpline
 70
8
 71
3
 72
8
 73
4
 74
0
 40
0
 40
0
 40
0
 40
0
 40
1
 40
1
 40
1
 40
1
 10
528.617501
 20
369.579124
 30
0.0
 10
530.154501
 20
369.579124
 30
0.0
 10
531.226501
 20
369.865124
 30
0.0
 10
531.830501
 20
370.467124
 30
0.0
  0
SPLINE
  5
16d
100
AcDbEntity
  8
Layer_1
 62
7
100
AcDbSpline
 70
8
 71
3
 72
8
 73
4
 74
0
 40
0
 40
0
 40
0
 40
0
 40
1
 40
1
 40
1
 40
1
 10
531.830501
 20
370.467124
 30
0.0
 10
532.444501
 20
371.058124
 30
0.0
 10
532.738501
 20
372.149124
 30
0.0
 10
532.738501
 20
373.725124
 30
0.0
  0
LWPOLYLINE
  5
16e
100
AcDbEntity
  8
Layer_1
 62
7
100
AcDbPolyline
 90
3
 70
0
 10
539.374501
 20
380.420124
 30
0.0
 10
532.668501
 20
380.420124
 30
0.0
 10
532.668501
 20
380.884124
 30
0.0
  0
LWPOLYLINE
  5
16f
100
AcDbEntity
  8
Layer_1
 62
7
100
AcDbPolyline
 90
2
 70
0
 10
532.738501
 20
373.725124
 30
0.0
 10
532.738501
 20
373.988124
 30
0.0
  0
SPLINE
  5
170
100
AcDbEntity
  8
Layer_1
 62
7
100
AcDbSpline
 70
8
 71
3
 72
8
 73
4
 74
0
 40
0
 40
0
 40
0
 40
0
 40
1
 40
1
 40
1
 40
1
 10
552.385501
 20
372.654124
 30
0.0
 10
552.385501
 20
371.479124
 30
0.0
 10
552.669501
 20
370.654124
 30
0.0
 10
553.251501
 20
370.226124
 30
0.0
  0
SPLINE
  5
171
100
AcDbEntity
  8
Layer_1
 62
7
100
AcDbSpline
 70
8
 71
3
 72
8
 73
4
 74
0
 40
0
 40
0
 40
0
 40
0
 40
1
 40
1
 40
1
 40
1
 10
553.251501
 20
370.226124
 30
0.0
 10
553.807501
 20
369.786124
 30
0.0
 10
554.798501
 20
369.578124
 30
0.0
 10
556.197501
 20
369.578124
 30
0.0
  0
SPLINE
  5
172
100
AcDbEntity
  8
Layer_1
 62
7
100
AcDbSpline
 70
8
 71
3
 72
8
 73
4
 74
0
 40
0
 40
0
 40
0
 40
0
 40
1
 40
1
 40
1
 40
1
 10
556.197501
 20
369.578124
 30
0.0
 10
557.652501
 20
369.578124
 30
0.0
 10
558.775501
 20
369.761124
 30
0.0
 10
559.519501
 20
370.166124
 30
0.0
  0
SPLINE
  5
173
100
AcDbEntity
  8
Layer_1
 62
7
100
AcDbSpline
 70
8
 71
3
 72
8
 73
4
 74
0
 40
0
 40
0
 40
0
 40
0
 40
1
 40
1
 40
1
 40
1
 10
559.519501
 20
370.166124
 30
0.0
 10
560.297501
 20
370.552124
 30
0.0
 10
560.677501
 20
371.125124
 30
0.0
 10
560.677501
 20
371.870124
 30
0.0
  0
SPLINE
  5
174
100
AcDbEntity
  8
Layer_1
 62
7
100
AcDbSpline
 70
8
 71
3
 72
8
 73
4
 74
0
 40
0
 40
0
 40
0
 40
0
 40
1
 40
1
 40
1
 40
1
 10
560.677501
 20
371.870124
 30
0.0
 10
560.677501
 20
372.450124
 30
0.0
 10
560.408501
 20
372.935124
 30
0.0
 10
559.890501
 20
373.358124
 30
0.0
  0
SPLINE
  5
175
100
AcDbEntity
  8
Layer_1
 62
7
100
AcDbSpline
 70
8
 71
3
 72
8
 73
4
 74
0
 40
0
 40
0
 40
0
 40
0
 40
1
 40
1
 40
1
 40
1
 10
559.890501
 20
373.358124
 30
0.0
 10
559.346501
 20
373.776124
 30
0.0
 10
558.209501
 20
374.305124
 30
0.0
 10
556.445501
 20
374.957124
 30
0.0
  0
LWPOLYLINE
  5
176
100
AcDbEntity
  8
Layer_1
 62
7
100
AcDbPolyline
 90
3
 70
0
 10
545.426501
 20
373.903124
 30
0.0
 10
552.385501
 20
373.903124
 30
0.0
 10
552.385501
 20
372.654124
 30
0.0
  0
SPLINE
  5
177
100
AcDbEntity
  8
Layer_1
 62
7
100
AcDbSpline
 70
8
 71
3
 72
8
 73
4
 74
0
 40
0
 40
0
 40
0
 40
0
 40
1
 40
1
 40
1
 40
1
 10
552.888501
 20
376.253124
 30
0.0
 10
549.809501
 20
377.352124
 30
0.0
 10
547.840501
 20
378.248124
 30
0.0
 10
547.025501
 20
378.964124
 30
0.0
  0
SPLINE
  5
178
100
AcDbEntity
  8
Layer_1
 62
7
100
AcDbSpline
 70
8
 71
3
 72
8
 73
4
 74
0
 40
0
 40
0
 40
0
 40
0
 40
1
 40
1
 40
1
 40
1
 10
547.025501
 20
378.964124
 30
0.0
 10
546.179501
 20
379.677124
 30
0.0
 10
545.771501
 20
380.567124
 30
0.0
 10
545.771501
 20
381.633124
 30
0.0
  0
SPLINE
  5
179
100
AcDbEntity
  8
Layer_1
 62
7
100
AcDbSpline
 70
8
 71
3
 72
8
 73
4
 74
0
 40
0
 40
0
 40
0
 40
0
 40
1
 40
1
 40
1
 40
1
 10
545.771501
 20
381.633124
 30
0.0
 10
545.771501
 20
383.253124
 30
0.0
 10
546.701501
 20
384.508124
 30
0.0
 10
548.563501
 20
385.411124
 30
0.0
  0
SPLINE
  5
17a
100
AcDbEntity
  8
Layer_1
 62
7
100
AcDbSpline
 70
8
 71
3
 72
8
 73
4
 74
0
 40
0
 40
0
 40
0
 40
0
 40
1
 40
1
 40
1
 40
1
 10
548.563501
 20
385.411124
 30
0.0
 10
550.414501
 20
386.320124
 30
0.0
 10
552.969501
 20
386.775124
 30
0.0
 10
556.235501
 20
386.775124
 30
0.0
  0
SPLINE
  5
17b
100
AcDbEntity
  8
Layer_1
 62
7
100
AcDbSpline
 70
8
 71
3
 72
8
 73
4
 74
0
 40
0
 40
0
 40
0
 40
0
 40
1
 40
1
 40
1
 40
1
 10
556.235501
 20
386.775124
 30
0.0
 10
559.701501
 20
386.775124
 30
0.0
 10
562.341501
 20
386.287124
 30
0.0
 10
564.181501
 20
385.328124
 30
0.0
  0
SPLINE
  5
17c
100
AcDbEntity
  8
Layer_1
 62
7
100
AcDbSpline
 70
8
 71
3
 72
8
 73
4
 74
0
 40
0
 40
0
 40
0
 40
0
 40
1
 40
1
 40
1
 40
1
 10
564.181501
 20
385.328124
 30
0.0
 10
566.009501
 20
384.365124
 30
0.0
 10
566.941501
 20
382.977124
 30
0.0
 10
566.941501
 20
381.196124
 30
0.0
  0
SPLINE
  5
17d
100
AcDbEntity
  8
Layer_1
 62
7
100
AcDbSpline
 70
8
 71
3
 72
8
 73
4
 74
0
 40
0
 40
0
 40
0
 40
0
 40
1
 40
1
 40
1
 40
1
 10
566.941501
 20
381.196124
 30
0.0
 10
566.941501
 20
381.009124
 30
0.0
 10
566.939501
 20
380.873124
 30
0.0
 10
566.926501
 20
380.778124
 30
0.0
  0
SPLINE
  5
17e
100
AcDbEntity
  8
Layer_1
 62
7
100
AcDbSpline
 70
8
 71
3
 72
8
 73
4
 74
0
 40
0
 40
0
 40
0
 40
0
 40
1
 40
1
 40
1
 40
1
 10
566.926501
 20
380.778124
 30
0.0
 10
566.916501
 20
380.683124
 30
0.0
 10
566.902501
 20
380.594124
 30
0.0
 10
566.892501
 20
380.522124
 30
0.0
  0
LWPOLYLINE
  5
17f
100
AcDbEntity
  8
Layer_1
 62
7
100
AcDbPolyline
 90
2
 70
0
 10
556.445501
 20
374.957124
 30
0.0
 10
552.888501
 20
376.253124
 30
0.0
  0
SPLINE
  5
180
100
AcDbEntity
  8
Layer_1
 62
7
100
AcDbSpline
 70
8
 71
3
 72
8
 73
4
 74
0
 40
0
 40
0
 40
0
 40
0
 40
1
 40
1
 40
1
 40
1
 10
560.328501
 20
381.011124
 30
0.0
 10
560.328501
 20
382.041124
 30
0.0
 10
559.982501
 20
382.766124
 30
0.0
 10
559.335501
 20
383.207124
 30
0.0
  0
SPLINE
  5
181
100
AcDbEntity
  8
Layer_1
 62
7
100
AcDbSpline
 70
8
 71
3
 72
8
 73
4
 74
0
 40
0
 40
0
 40
0
 40
0
 40
1
 40
1
 40
1
 40
1
 10
559.335501
 20
383.207124
 30
0.0
 10
558.665501
 20
383.646124
 30
0.0
 10
557.576501
 20
383.865124
 30
0.0
 10
556.068501
 20
383.865124
 30
0.0
  0
SPLINE
  5
182
100
AcDbEntity
  8
Layer_1
 62
7
100
AcDbSpline
 70
8
 71
3
 72
8
 73
4
 74
0
 40
0
 40
0
 40
0
 40
0
 40
1
 40
1
 40
1
 40
1
 10
556.068501
 20
383.865124
 30
0.0
 10
554.949501
 20
383.865124
 30
0.0
 10
554.069501
 20
383.703124
 30
0.0
 10
553.431501
 20
383.370124
 30
0.0
  0
SPLINE
  5
183
100
AcDbEntity
  8
Layer_1
 62
7
100
AcDbSpline
 70
8
 71
3
 72
8
 73
4
 74
0
 40
0
 40
0
 40
0
 40
0
 40
1
 40
1
 40
1
 40
1
 10
553.431501
 20
383.370124
 30
0.0
 10
552.784501
 20
383.049124
 30
0.0
 10
552.469501
 20
382.583124
 30
0.0
 10
552.469501
 20
381.985124
 30
0.0
  0
SPLINE
  5
184
100
AcDbEntity
  8
Layer_1
 62
7
100
AcDbSpline
 70
8
 71
3
 72
8
 73
4
 74
0
 40
0
 40
0
 40
0
 40
0
 40
1
 40
1
 40
1
 40
1
 10
552.469501
 20
381.985124
 30
0.0
 10
552.469501
 20
381.178124
 30
0.0
 10
553.903501
 20
380.304124
 30
0.0
 10
556.766501
 20
379.332124
 30
0.0
  0
SPLINE
  5
185
100
AcDbEntity
  8
Layer_1
 62
7
100
AcDbSpline
 70
8
 71
3
 72
8
 73
4
 74
0
 40
0
 40
0
 40
0
 40
0
 40
1
 40
1
 40
1
 40
1
 10
556.766501
 20
379.332124
 30
0.0
 10
556.789501
 20
379.316124
 30
0.0
 10
556.822501
 20
379.316124
 30
0.0
 10
556.837501
 20
379.316124
 30
0.0
  0
LWPOLYLINE
  5
186
100
AcDbEntity
  8
Layer_1
 62
7
100
AcDbPolyline
 90
3
 70
0
 10
566.892501
 20
380.522124
 30
0.0
 10
560.328501
 20
380.522124
 30
0.0
 10
560.328501
 20
381.011124
 30
0.0
  0
SPLINE
  5
187
100
AcDbEntity
  8
Layer_1
 62
7
100
AcDbSpline
 70
8
 71
3
 72
8
 73
4
 74
0
 40
0
 40
0
 40
0
 40
0
 40
1
 40
1
 40
1
 40
1
 10
560.626501
 20
377.967124
 30
0.0
 10
563.358501
 20
377.046124
 30
0.0
 10
565.217501
 20
376.160124
 30
0.0
 10
566.188501
 20
375.333124
 30
0.0
  0
SPLINE
  5
188
100
AcDbEntity
  8
Layer_1
 62
7
100
AcDbSpline
 70
8
 71
3
 72
8
 73
4
 74
0
 40
0
 40
0
 40
0
 40
0
 40
1
 40
1
 40
1
 40
1
 10
566.188501
 20
375.333124
 30
0.0
 10
567.154501
 20
374.518124
 30
0.0
 10
567.646501
 20
373.457124
 30
0.0
 10
567.646501
 20
372.181124
 30
0.0
  0
SPLINE
  5
189
100
AcDbEntity
  8
Layer_1
 62
7
100
AcDbSpline
 70
8
 71
3
 72
8
 73
4
 74
0
 40
0
 40
0
 40
0
 40
0
 40
1
 40
1
 40
1
 40
1
 10
567.646501
 20
372.181124
 30
0.0
 10
567.646501
 20
370.433124
 30
0.0
 10
566.669501
 20
369.078124
 30
0.0
 10
564.737501
 20
368.154124
 30
0.0
  0
SPLINE
  5
18a
100
AcDbEntity
  8
Layer_1
 62
7
100
AcDbSpline
 70
8
 71
3
 72
8
 73
4
 74
0
 40
0
 40
0
 40
0
 40
0
 40
1
 40
1
 40
1
 40
1
 10
564.737501
 20
368.154124
 30
0.0
 10
562.810501
 20
367.218124
 30
0.0
 10
560.049501
 20
366.755124
 30
0.0
 10
556.445501
 20
366.755124
 30
0.0
  0
SPLINE
  5
18b
100
AcDbEntity
  8
Layer_1
 62
7
100
AcDbSpline
 70
8
 71
3
 72
8
 73
4
 74
0
 40
0
 40
0
 40
0
 40
0
 40
1
 40
1
 40
1
 40
1
 10
556.445501
 20
366.755124
 30
0.0
 10
552.703501
 20
366.755124
 30
0.0
 10
549.914501
 20
367.248124
 30
0.0
 10
548.085501
 20
368.222124
 30
0.0
  0
SPLINE
  5
18c
100
AcDbEntity
  8
Layer_1
 62
7
100
AcDbSpline
 70
8
 71
3
 72
8
 73
4
 74
0
 40
0
 40
0
 40
0
 40
0
 40
1
 40
1
 40
1
 40
1
 10
548.085501
 20
368.222124
 30
0.0
 10
546.244501
 20
369.195124
 30
0.0
 10
545.334501
 20
370.700124
 30
0.0
 10
545.334501
 20
372.735124
 30
0.0
  0
SPLINE
  5
18d
100
AcDbEntity
  8
Layer_1
 62
7
100
AcDbSpline
 70
8
 71
3
 72
8
 73
4
 74
0
 40
0
 40
0
 40
0
 40
0
 40
1
 40
1
 40
1
 40
1
 10
545.334501
 20
372.735124
 30
0.0
 10
545.334501
 20
372.957124
 30
0.0
 10
545.367501
 20
373.324124
 30
0.0
 10
545.426501
 20
373.813124
 30
0.0
  0
LWPOLYLINE
  5
18e
100
AcDbEntity
  8
Layer_1
 62
7
100
AcDbPolyline
 90
2
 70
0
 10
556.837501
 20
379.316124
 30
0.0
 10
560.626501
 20
377.967124
 30
0.0
  0
LWPOLYLINE
  5
18f
100
AcDbEntity
  8
Layer_1
 62
7
100
AcDbPolyline
 90
2
 70
0
 10
545.426501
 20
373.813124
 30
0.0
 10
545.426501
 20
373.903124
 30
0.0
  0
LWPOLYLINE
  5
190
100
AcDbEntity
  8
Layer_1
 62
7
100
AcDbPolyline
 90
6
 70
1
 10
68.368801
 20
395.788124
 30
0.0
 10
572.673801
 20
395.788124
 30
0.0
 10
572.673801
 20
398.097104
 30
0.0
 10
68.368801
 20
398.097104
 30
0.0
 10
68.368801
 20
395.788124
 30
0.0
 10
68.368801
 20
395.788124
 30
0.0
  0
LWPOLYLINE
  5
191
100
AcDbEntity
  8
Layer_1
 62
7
100
AcDbPolyline
 90
6
 70
1
 10
328.306501
 20
345.303124
 30
0.0
 10
330.440481
 20
345.303124
 30
0.0
 10
330.440481
 20
500.309124
 30
0.0
 10
328.306501
 20
500.309124
 30
0.0
 10
328.306501
 20
345.303124
 30
0.0
 10
328.306501
 20
345.303124
 30
0.0
  0
LWPOLYLINE
  5
192
100
AcDbEntity
  8
Layer_1
 62
7
100
AcDbPolyline
 90
6
 70
1
 10
20.730501
 20
406.501124
 30
0.0
 10
472.659501
 20
406.501124
 30
0.0
 10
472.659501
 20
411.801124
 30
0.0
 10
20.730501
 20
411.801124
 30
0.0
 10
20.730501
 20
406.501124
 30
0.0
 10
20.730501
 20
406.501124
 30
0.0
  0
SPLINE
  5
193
100
AcDbEntity
  8
Layer_1
 62
7
100
AcDbSpline
 70
8
 71
3
 72
8
 73
4
 74
0
 40
0
 40
0
 40
0
 40
0
 40
1
 40
1
 40
1
 40
1
 10
581.215501
 20
399.970124
 30
0.0
 10
581.754501
 20
399.970124
 30
0.0
 10
582.161501
 20
399.930124
 30
0.0
 10
582.431501
 20
399.814124
 30
0.0
  0
SPLINE
  5
194
100
AcDbEntity
  8
Layer_1
 62
7
100
AcDbSpline
 70
8
 71
3
 72
8
 73
4
 74
0
 40
0
 40
0
 40
0
 40
0
 40
1
 40
1
 40
1
 40
1
 10
582.431501
 20
399.814124
 30
0.0
 10
582.722501
 20
399.700124
 30
0.0
 10
582.947501
 20
399.507124
 30
0.0
 10
583.111501
 20
399.229124
 30
0.0
  0
SPLINE
  5
195
100
AcDbEntity
  8
Layer_1
 62
7
100
AcDbSpline
 70
8
 71
3
 72
8
 73
4
 74
0
 40
0
 40
0
 40
0
 40
0
 40
1
 40
1
 40
1
 40
1
 10
583.111501
 20
399.229124
 30
0.0
 10
583.276501
 20
398.960124
 30
0.0
 10
583.357501
 20
398.652124
 30
0.0
 10
583.357501
 20
398.314124
 30
0.0
  0
SPLINE
  5
196
100
AcDbEntity
  8
Layer_1
 62
7
100
AcDbSpline
 70
8
 71
3
 72
8
 73
4
 74
0
 40
0
 40
0
 40
0
 40
0
 40
1
 40
1
 40
1
 40
1
 10
583.357501
 20
398.314124
 30
0.0
 10
583.357501
 20
397.887124
 30
0.0
 10
583.224501
 20
397.526124
 30
0.0
 10
582.947501
 20
397.237124
 30
0.0
  0
SPLINE
  5
197
100
AcDbEntity
  8
Layer_1
 62
7
100
AcDbSpline
 70
8
 71
3
 72
8
 73
4
 74
0
 40
0
 40
0
 40
0
 40
0
 40
1
 40
1
 40
1
 40
1
 10
582.947501
 20
397.237124
 30
0.0
 10
582.673501
 20
396.936124
 30
0.0
 10
582.244501
 20
396.751124
 30
0.0
 10
581.654501
 20
396.662124
 30
0.0
  0
SPLINE
  5
198
100
AcDbEntity
  8
Layer_1
 62
7
100
AcDbSpline
 70
8
 71
3
 72
8
 73
4
 74
0
 40
0
 40
0
 40
0
 40
0
 40
1
 40
1
 40
1
 40
1
 10
581.654501
 20
396.662124
 30
0.0
 10
581.863501
 20
396.567124
 30
0.0
 10
582.035501
 20
396.473124
 30
0.0
 10
582.138501
 20
396.370124
 30
0.0
  0
SPLINE
  5
199
100
AcDbEntity
  8
Layer_1
 62
7
100
AcDbSpline
 70
8
 71
3
 72
8
 73
4
 74
0
 40
0
 40
0
 40
0
 40
0
 40
1
 40
1
 40
1
 40
1
 10
582.138501
 20
396.370124
 30
0.0
 10
582.369501
 20
396.154124
 30
0.0
 10
582.601501
 20
395.891124
 30
0.0
 10
582.800501
 20
395.562124
 30
0.0
  0
LWPOLYLINE
  5
19a
100
AcDbEntity
  8
Layer_1
 62
7
100
AcDbPolyline
 90
3
 70
0
 10
578.517501
 20
393.917124
 30
0.0
 10
578.517501
 20
399.970124
 30
0.0
 10
581.215501
 20
399.970124
 30
0.0
  0
SPLINE
  5
19b
100
AcDbEntity
  8
Layer_1
 62
7
100
AcDbSpline
 70
8
 71
3
 72
8
 73
4
 74
0
 40
0
 40
0
 40
0
 40
0
 40
1
 40
1
 40
1
 40
1
 10
582.062501
 20
395.176124
 30
0.0
 10
581.817501
 20
395.535124
 30
0.0
 10
581.631501
 20
395.815124
 30
0.0
 10
581.468501
 20
396.011124
 30
0.0
  0
SPLINE
  5
19c
100
AcDbEntity
  8
Layer_1
 62
7
100
AcDbSpline
 70
8
 71
3
 72
8
 73
4
 74
0
 40
0
 40
0
 40
0
 40
0
 40
1
 40
1
 40
1
 40
1
 10
581.468501
 20
396.011124
 30
0.0
 10
581.328501
 20
396.194124
 30
0.0
 10
581.186501
 20
396.339124
 30
0.0
 10
581.063501
 20
396.420124
 30
0.0
  0
SPLINE
  5
19d
100
AcDbEntity
  8
Layer_1
 62
7
100
AcDbSpline
 70
8
 71
3
 72
8
 73
4
 74
0
 40
0
 40
0
 40
0
 40
0
 40
1
 40
1
 40
1
 40
1
 10
581.063501
 20
396.420124
 30
0.0
 10
580.951501
 20
396.497124
 30
0.0
 10
580.820501
 20
396.545124
 30
0.0
 10
580.697501
 20
396.567124
 30
0.0
  0
SPLINE
  5
19e
100
AcDbEntity
  8
Layer_1
 62
7
100
AcDbSpline
 70
8
 71
3
 72
8
 73
4
 74
0
 40
0
 40
0
 40
0
 40
0
 40
1
 40
1
 40
1
 40
1
 10
580.697501
 20
396.567124
 30
0.0
 10
580.616501
 20
396.593124
 30
0.0
 10
580.461501
 20
396.604124
 30
0.0
 10
580.253501
 20
396.604124
 30
0.0
  0
LWPOLYLINE
  5
19f
100
AcDbEntity
  8
Layer_1
 62
7
100
AcDbPolyline
 90
4
 70
0
 10
582.800501
 20
395.562124
 30
0.0
 10
583.851501
 20
393.917124
 30
0.0
 10
582.845501
 20
393.917124
 30
0.0
 10
582.062501
 20
395.176124
 30
0.0
  0
LWPOLYLINE
  5
1a0
100
AcDbEntity
  8
Layer_1
 62
7
100
AcDbPolyline
 90
5
 70
0
 10
580.253501
 20
396.604124
 30
0.0
 10
579.329501
 20
396.604124
 30
0.0
 10
579.329501
 20
393.917124
 30
0.0
 10
578.517501
 20
393.917124
 30
0.0
 10
578.517501
 20
393.917124
 30
0.0
  0
SPLINE
  5
1a1
100
AcDbEntity
  8
Layer_1
 62
7
100
AcDbSpline
 70
8
 71
3
 72
8
 73
4
 74
0
 40
0
 40
0
 40
0
 40
0
 40
1
 40
1
 40
1
 40
1
 10
581.052501
 20
397.296124
 30
0.0
 10
581.413501
 20
397.296124
 30
0.0
 10
581.703501
 20
397.342124
 30
0.0
 10
581.908501
 20
397.414124
 30
0.0
  0
SPLINE
  5
1a2
100
AcDbEntity
  8
Layer_1
 62
7
100
AcDbSpline
 70
8
 71
3
 72
8
 73
4
 74
0
 40
0
 40
0
 40
0
 40
0
 40
1
 40
1
 40
1
 40
1
 10
581.908501
 20
397.414124
 30
0.0
 10
582.109501
 20
397.492124
 30
0.0
 10
582.267501
 20
397.614124
 30
0.0
 10
582.369501
 20
397.768124
 30
0.0
  0
SPLINE
  5
1a3
100
AcDbEntity
  8
Layer_1
 62
7
100
AcDbSpline
 70
8
 71
3
 72
8
 73
4
 74
0
 40
0
 40
0
 40
0
 40
0
 40
1
 40
1
 40
1
 40
1
 10
582.369501
 20
397.768124
 30
0.0
 10
582.485501
 20
397.942124
 30
0.0
 10
582.535501
 20
398.128124
 30
0.0
 10
582.535501
 20
398.314124
 30
0.0
  0
SPLINE
  5
1a4
100
AcDbEntity
  8
Layer_1
 62
7
100
AcDbSpline
 70
8
 71
3
 72
8
 73
4
 74
0
 40
0
 40
0
 40
0
 40
0
 40
1
 40
1
 40
1
 40
1
 10
582.535501
 20
398.314124
 30
0.0
 10
582.535501
 20
398.612124
 30
0.0
 10
582.431501
 20
398.846124
 30
0.0
 10
582.222501
 20
399.035124
 30
0.0
  0
SPLINE
  5
1a5
100
AcDbEntity
  8
Layer_1
 62
7
100
AcDbSpline
 70
8
 71
3
 72
8
 73
4
 74
0
 40
0
 40
0
 40
0
 40
0
 40
1
 40
1
 40
1
 40
1
 10
582.222501
 20
399.035124
 30
0.0
 10
582.024501
 20
399.219124
 30
0.0
 10
581.687501
 20
399.307124
 30
0.0
 10
581.232501
 20
399.307124
 30
0.0
  0
LWPOLYLINE
  5
1a6
100
AcDbEntity
  8
Layer_1
 62
7
100
AcDbPolyline
 90
2
 70
0
 10
579.329501
 20
397.296124
 30
0.0
 10
581.052501
 20
397.296124
 30
0.0
  0
SPLINE
  5
1a7
100
AcDbEntity
  8
Layer_1
 62
5
100
AcDbSpline
 70
8
 71
3
 72
8
 73
4
 74
0
 40
0
 40
0
 40
0
 40
0
 40
1
 40
1
 40
1
 40
1
 10
586.769501
 20
396.935124
 30
0.0
 10
586.769501
 20
393.675124
 30
0.0
 10
584.122501
 20
391.028124
 30
0.0
 10
580.852501
 20
391.028124
 30
0.0
  0
SPLINE
  5
1a8
100
AcDbEntity
  8
Layer_1
 62
5
100
AcDbSpline
 70
8
 71
3
 72
8
 73
4
 74
0
 40
0
 40
0
 40
0
 40
0
 40
1
 40
1
 40
1
 40
1
 10
580.852501
 20
391.028124
 30
0.0
 10
577.582501
 20
391.028124
 30
0.0
 10
574.936501
 20
393.675124
 30
0.0
 10
574.936501
 20
396.935124
 30
0.0
  0
SPLINE
  5
1a9
100
AcDbEntity
  8
Layer_1
 62
5
100
AcDbSpline
 70
8
 71
3
 72
8
 73
4
 74
0
 40
0
 40
0
 40
0
 40
0
 40
1
 40
1
 40
1
 40
1
 10
574.936501
 20
396.935124
 30
0.0
 10
574.936501
 20
400.207124
 30
0.0
 10
577.582501
 20
402.858124
 30
0.0
 10
580.852501
 20
402.858124
 30
0.0
  0
SPLINE
  5
1aa
100
AcDbEntity
  8
Layer_1
 62
5
100
AcDbSpline
 70
8
 71
3
 72
8
 73
4
 74
0
 40
0
 40
0
 40
0
 40
0
 40
1
 40
1
 40
1
 40
1
 10
580.852501
 20
402.858124
 30
0.0
 10
584.122501
 20
402.858124
 30
0.0
 10
586.769501
 20
400.207124
 30
0.0
 10
586.769501
 20
396.935124
 30
0.0
  0
LWPOLYLINE
  5
1ab
100
AcDbEntity
  8
Layer_1
 62
7
100
AcDbPolyline
 90
3
 70
0
 10
581.232501
 20
399.307124
 30
0.0
 10
579.329501
 20
399.307124
 30
0.0
 10
579.329501
 20
397.296124
 30
0.0
  0
LWPOLYLINE
  5
1ac
100
AcDbEntity
  8
Layer_1
 62
5
100
AcDbPolyline
 90
2
 70
1
 10
586.769501
 20
396.935124
 30
0.0
 10
586.769501
 20
396.935124
 30
0.0
  0
LWPOLYLINE
  5
1ad
100
AcDbEntity
  8
Layer_1
 62
7
100
AcDbPolyline
 90
6
 70
1
 10
87.759401
 20
444.440124
 30
0.0
 10
121.751601
 20
444.440124
 30
0.0
 10
121.751601
 20
456.225324
 30
0.0
 10
87.759401
 20
456.225324
 30
0.0
 10
87.759401
 20
444.440124
 30
0.0
 10
87.759401
 20
444.440124
 30
0.0
  0
LWPOLYLINE
  5
1ae
100
AcDbEntity
  8
Layer_1
 62
7
100
AcDbPolyline
 90
6
 70
1
 10
87.759401
 20
416.542124
 30
0.0
 10
121.751601
 20
416.542124
 30
0.0
 10
121.751601
 20
442.132324
 30
0.0
 10
87.759401
 20
442.132324
 30
0.0
 10
87.759401
 20
416.542124
 30
0.0
 10
87.759401
 20
416.542124
 30
0.0
  0
LWPOLYLINE
  5
1af
100
AcDbEntity
  8
Layer_1
 62
7
100
AcDbPolyline
 90
24
 70
0
 10
234.259501
 20
444.440124
 30
0.0
 10
234.305501
 20
451.065124
 30
0.0
 10
268.968501
 20
444.440124
 30
0.0
 10
293.548501
 20
444.440124
 30
0.0
 10
293.482501
 20
445.647124
 30
0.0
 10
293.037501
 20
446.706124
 30
0.0
 10
292.591501
 20
447.581124
 30
0.0
 10
291.803501
 20
448.728124
 30
0.0
 10
290.653501
 20
449.790124
 30
0.0
 10
289.160501
 20
450.846124
 30
0.0
 10
287.391501
 20
451.818124
 30
0.0
 10
285.366501
 20
452.695124
 30
0.0
 10
283.687501
 20
453.311124
 30
0.0
 10
281.839501
 20
453.852124
 30
0.0
 10
280.162501
 20
454.279124
 30
0.0
 10
277.419501
 20
454.810124
 30
0.0
 10
275.130501
 20
455.163124
 30
0.0
 10
271.516501
 20
455.519124
 30
0.0
 10
268.430501
 20
455.874124
 30
0.0
 10
265.347501
 20
456.040124
 30
0.0
 10
261.820501
 20
456.226124
 30
0.0
 10
200.128501
 20
456.226124
 30
0.0
 10
200.128501
 20
444.440124
 30
0.0
 10
234.259501
 20
444.440124
 30
0.0
  0
LWPOLYLINE
  5
1b0
100
AcDbEntity
  8
Layer_1
 62
7
100
AcDbPolyline
 90
26
 70
0
 10
269.350501
 20
442.132124
 30
0.0
 10
234.257501
 20
436.516124
 30
0.0
 10
234.257501
 20
442.132124
 30
0.0
 10
200.128501
 20
442.132124
 30
0.0
 10
200.128501
 20
416.542124
 30
0.0
 10
234.257501
 20
416.542124
 30
0.0
 10
234.257501
 20
431.358124
 30
0.0
 10
253.881501
 20
431.265124
 30
0.0
 10
257.676501
 20
431.358124
 30
0.0
 10
261.290501
 20
431.450124
 30
0.0
 10
264.460501
 20
431.621124
 30
0.0
 10
267.812501
 20
431.794124
 30
0.0
 10
270.641501
 20
432.061124
 30
0.0
 10
273.900501
 20
432.493124
 30
0.0
 10
277.160501
 20
433.035124
 30
0.0
 10
279.812501
 20
433.557124
 30
0.0
 10
282.193501
 20
434.261124
 30
0.0
 10
284.487501
 20
434.973124
 30
0.0
 10
286.341501
 20
435.766124
 30
0.0
 10
287.921501
 20
436.557124
 30
0.0
 10
289.601501
 20
437.528124
 30
0.0
 10
291.017501
 20
438.679124
 30
0.0
 10
292.150501
 20
439.819124
 30
0.0
 10
292.858501
 20
440.971124
 30
0.0
 10
293.269501
 20
442.132124
 30
0.0
 10
269.350501
 20
442.132124
 30
0.0
  0
ENDSEC
  0
SECTION
  2
OBJECTS
  0
DICTIONARY
  5
C
330
0
100
AcDbDictionary
  3
ACAD_GROUP
350
D
  3
ACAD_MLINESTYLE
350
17
  0
DICTIONARY
  5
D
330
C
100
AcDbDictionary
  0
DICTIONARY
  5
1A
330
C
100
AcDbDictionary
  0
DICTIONARY
  5
17
330
C
100
AcDbDictionary
  3
STANDARD
350
18
  0
DICTIONARY
  5
19
330
C
100
AcDbDictionary
  0
ENDSEC
  0
EOF
